ISO-10303-21;
HEADER;
FILE_DESCRIPTION (( 'STEP AP203' ),
    '1' );
FILE_NAME ('UVFS-LNPBSP-25.4-355.STEP',
    '2020-12-22T04:15:14',
    ( '' ),
    ( '' ),
    'SwSTEP 2.0',
    'SolidWorks 2020',
    '' );
FILE_SCHEMA (( 'CONFIG_CONTROL_DESIGN' ));
ENDSEC;

DATA;
#1 = PRODUCT ( 'UVFS-LNPBSP-25.4-355', 'UVFS-LNPBSP-25.4-355', '', ( #10 ) ) ;
#2 = AXIS2_PLACEMENT_3D ( 'NONE', #108, #26, #11 ) ;
#3 = DIRECTION ( 'NONE',  ( -1.000000000000000000, 0.000000000000000000, -0.000000000000000000 ) ) ;
#4 = UNCERTAINTY_MEASURE_WITH_UNIT (LENGTH_MEASURE( 1.000000000000000082E-05 ), #111, 'distance_accuracy_value', 'NONE');
#5 = ORIENTED_EDGE ( 'NONE', *, *, #66, .F. ) ;
#6 = ORIENTED_EDGE ( 'NONE', *, *, #121, .F. ) ;
#7 = SECURITY_CLASSIFICATION_LEVEL ( 'unclassified' ) ;
#8 = DIRECTION ( 'NONE',  ( -1.000000000000000000, -0.000000000000000000, -0.000000000000000000 ) ) ;
#9 = CIRCLE ( 'NONE', #22, 12.69999999999999929 ) ;
#10 = MECHANICAL_CONTEXT ( 'NONE', #135, 'mechanical' ) ;
#11 = DIRECTION ( 'NONE',  ( 0.000000000000000000, 0.000000000000000000, 1.000000000000000000 ) ) ;
#12 = EDGE_CURVE ( 'NONE', #124, #78, #28, .T. ) ;
#13 = APPROVAL_DATE_TIME ( #59, #89 ) ;
#14 = LOCAL_TIME ( 12, 15, 14.00000000000000000, #110 ) ;
#15 = ADVANCED_FACE ( 'NONE', ( #45 ), #167, .T. ) ;
#16 = PLANE ( 'NONE',  #76 ) ;
#17 = DIRECTION ( 'NONE',  ( -1.000000000000000000, -0.000000000000000000, -0.000000000000000000 ) ) ;
#18 = CARTESIAN_POINT ( 'NONE',  ( -5.939536975864662969E-16, 12.69999999999999929, 0.000000000000000000 ) ) ;
#19 = CIRCLE ( 'NONE', #37, 12.69999999999999929 ) ;
#20 = ORIENTED_EDGE ( 'NONE', *, *, #153, .F. ) ;
#21 = CALENDAR_DATE ( 2020, 22, 12 ) ;
#22 = AXIS2_PLACEMENT_3D ( 'NONE', #67, #85, #104 ) ;
#23 = PERSON_AND_ORGANIZATION_ROLE ( 'creator' ) ;
#24 = DIRECTION ( 'NONE',  ( 0.000000000000000000, 0.000000000000000000, 1.000000000000000000 ) ) ;
#25 = COORDINATED_UNIVERSAL_TIME_OFFSET ( 8, 0, .AHEAD. ) ;
#26 = DIRECTION ( 'NONE',  ( -1.000000000000000000, -0.000000000000000000, -0.000000000000000000 ) ) ;
#27 = CC_DESIGN_PERSON_AND_ORGANIZATION_ASSIGNMENT ( #60, #23, ( #52 ) ) ;
#28 = LINE ( 'NONE', #164, #101 ) ;
#29 = CC_DESIGN_SECURITY_CLASSIFICATION ( #46, ( #109 ) ) ;
#30 = ORIENTED_EDGE ( 'NONE', *, *, #121, .T. ) ;
#31 = ORIENTED_EDGE ( 'NONE', *, *, #146, .F. ) ;
#32 = DIRECTION ( 'NONE',  ( -1.000000000000000000, -0.000000000000000000, -0.000000000000000000 ) ) ;
#33 = PRODUCT_DEFINITION_SHAPE ( 'NONE', 'NONE',  #52 ) ;
#34 = EDGE_LOOP ( 'NONE', ( #55, #105 ) ) ;
#35 = DESIGN_CONTEXT ( 'detailed design', #58, 'design' ) ;
#36 = DATE_AND_TIME ( #106, #162 ) ;
#37 = AXIS2_PLACEMENT_3D ( 'NONE', #70, #32, #83 ) ;
#38 = PERSON_AND_ORGANIZATION ( #118, #49 ) ;
#39 = CC_DESIGN_PERSON_AND_ORGANIZATION_ASSIGNMENT ( #130, #128, ( #109 ) ) ;
#40 = PLANE ( 'NONE',  #74 ) ;
#41 = LOCAL_TIME ( 12, 15, 14.00000000000000000, #142 ) ;
#42 = LINE ( 'NONE', #138, #147 ) ;
#43 = DIRECTION ( 'NONE',  ( 0.000000000000000000, 0.000000000000000000, -1.000000000000000000 ) ) ;
#44 = PERSON_AND_ORGANIZATION ( #118, #49 ) ;
#45 = FACE_OUTER_BOUND ( 'NONE', #68, .T. ) ;
#46 = SECURITY_CLASSIFICATION ( '', '', #7 ) ;
#47 = CARTESIAN_POINT ( 'NONE',  ( -1.187907395172932594E-15, 0.000000000000000000, 0.000000000000000000 ) ) ;
#48 = APPLICATION_PROTOCOL_DEFINITION ( 'international standard', 'config_control_design', 1994, #58 ) ;
#49 = ORGANIZATION ( 'UNSPECIFIED', 'UNSPECIFIED', '' ) ;
#50 =( NAMED_UNIT ( * ) SI_UNIT ( $, .STERADIAN. ) SOLID_ANGLE_UNIT ( ) );
#51 = APPROVAL_PERSON_ORGANIZATION ( #173, #89, #73 ) ;
#52 = PRODUCT_DEFINITION ( 'UNKNOWN', '', #109, #35 ) ;
#53 = VERTEX_POINT ( 'NONE', #125 ) ;
#54 =( GEOMETRIC_REPRESENTATION_CONTEXT ( 3 ) GLOBAL_UNCERTAINTY_ASSIGNED_CONTEXT ( ( #4 ) ) GLOBAL_UNIT_ASSIGNED_CONTEXT ( ( #111, #161, #50 ) ) REPRESENTATION_CONTEXT ( 'NONE', 'WORKASPACE' ) );
#55 = ORIENTED_EDGE ( 'NONE', *, *, #153, .T. ) ;
#56 = DATE_AND_TIME ( #139, #84 ) ;
#57 = CYLINDRICAL_SURFACE ( 'NONE', #2, 12.69999999999999929 ) ;
#58 = APPLICATION_CONTEXT ( 'configuration controlled 3d designs of mechanical parts and assemblies' ) ;
#59 = DATE_AND_TIME ( #131, #120 ) ;
#60 = PERSON_AND_ORGANIZATION ( #118, #49 ) ;
#61 = CLOSED_SHELL ( 'NONE', ( #149, #15, #62, #112 ) ) ;
#62 = ADVANCED_FACE ( 'NONE', ( #91 ), #40, .F. ) ;
#63 = APPROVAL_STATUS ( 'not_yet_approved' ) ;
#64 = PRODUCT_RELATED_PRODUCT_CATEGORY ( 'detail', '', ( #1 ) ) ;
#65 = CC_DESIGN_APPROVAL ( #122, ( #46 ) ) ;
#66 = EDGE_CURVE ( 'NONE', #53, #78, #9, .T. ) ;
#67 = CARTESIAN_POINT ( 'NONE',  ( -1.187907395172932594E-15, 0.000000000000000000, 0.000000000000000000 ) ) ;
#68 = EDGE_LOOP ( 'NONE', ( #156, #30, #80, #5 ) ) ;
#69 = DIRECTION ( 'NONE',  ( 1.000000000000000000, 0.000000000000000000, 0.000000000000000000 ) ) ;
#70 = CARTESIAN_POINT ( 'NONE',  ( 2.999999999999998224, 0.000000000000000000, 0.000000000000000000 ) ) ;
#71 = AXIS2_PLACEMENT_3D ( 'NONE', #160, #99, #98 ) ;
#72 = APPROVAL_ROLE ( '' ) ;
#73 = APPROVAL_ROLE ( '' ) ;
#74 = AXIS2_PLACEMENT_3D ( 'NONE', #79, #3, #151 ) ;
#75 = ORIENTED_EDGE ( 'NONE', *, *, #97, .T. ) ;
#76 = AXIS2_PLACEMENT_3D ( 'NONE', #18, #69, #43 ) ;
#77 = AXIS2_PLACEMENT_3D ( 'NONE', #47, #88, #24 ) ;
#78 = VERTEX_POINT ( 'NONE', #136 ) ;
#79 = CARTESIAN_POINT ( 'NONE',  ( 2.999999999999999112, 12.69999999999999929, 0.000000000000000000 ) ) ;
#80 = ORIENTED_EDGE ( 'NONE', *, *, #12, .T. ) ;
#81 = PERSON_AND_ORGANIZATION_ROLE ( 'design_supplier' ) ;
#82 = CC_DESIGN_DATE_AND_TIME_ASSIGNMENT ( #56, #95, ( #46 ) ) ;
#83 = DIRECTION ( 'NONE',  ( 0.000000000000000000, 0.000000000000000000, 1.000000000000000000 ) ) ;
#84 = LOCAL_TIME ( 12, 15, 14.00000000000000000, #174 ) ;
#85 = DIRECTION ( 'NONE',  ( -1.000000000000000000, -0.000000000000000000, -0.000000000000000000 ) ) ;
#86 = COORDINATED_UNIVERSAL_TIME_OFFSET ( 8, 0, .AHEAD. ) ;
#87 = SHAPE_DEFINITION_REPRESENTATION ( #33, #90 ) ;
#88 = DIRECTION ( 'NONE',  ( -1.000000000000000000, -0.000000000000000000, -0.000000000000000000 ) ) ;
#89 = APPROVAL ( #144, 'UNSPECIFIED' ) ;
#90 = ADVANCED_BREP_SHAPE_REPRESENTATION ( 'UVFS-LNPBSP-25.4-355', ( #107, #71 ), #54 ) ;
#91 = FACE_OUTER_BOUND ( 'NONE', #150, .T. ) ;
#92 = VERTEX_POINT ( 'NONE', #137 ) ;
#93 = DIRECTION ( 'NONE',  ( 0.000000000000000000, 0.000000000000000000, 1.000000000000000000 ) ) ;
#94 = CARTESIAN_POINT ( 'NONE',  ( 2.999999999999998224, 0.000000000000000000, 0.000000000000000000 ) ) ;
#95 = DATE_TIME_ROLE ( 'classification_date' ) ;
#96 = DIRECTION ( 'NONE',  ( -1.000000000000000000, -0.000000000000000000, -0.000000000000000000 ) ) ;
#97 = EDGE_CURVE ( 'NONE', #92, #53, #42, .T. ) ;
#98 = DIRECTION ( 'NONE',  ( 1.000000000000000000, 0.000000000000000000, 0.000000000000000000 ) ) ;
#99 = DIRECTION ( 'NONE',  ( 0.000000000000000000, 0.000000000000000000, 1.000000000000000000 ) ) ;
#100 = PERSON_AND_ORGANIZATION ( #118, #49 ) ;
#101 = VECTOR ( 'NONE', #96, 1000.000000000000000 ) ;
#102 = APPROVAL ( #63, 'UNSPECIFIED' ) ;
#103 = ORIENTED_EDGE ( 'NONE', *, *, #12, .F. ) ;
#104 = DIRECTION ( 'NONE',  ( 0.000000000000000000, 0.000000000000000000, 1.000000000000000000 ) ) ;
#105 = ORIENTED_EDGE ( 'NONE', *, *, #66, .T. ) ;
#106 = CALENDAR_DATE ( 2020, 22, 12 ) ;
#107 = MANIFOLD_SOLID_BREP ( 'Ðý×', #61 ) ;
#108 = CARTESIAN_POINT ( 'NONE',  ( 0.000000000000000000, 0.000000000000000000, 0.000000000000000000 ) ) ;
#109 = PRODUCT_DEFINITION_FORMATION_WITH_SPECIFIED_SOURCE ( 'ANY', '', #1, .NOT_KNOWN. ) ;
#110 = COORDINATED_UNIVERSAL_TIME_OFFSET ( 8, 0, .AHEAD. ) ;
#111 =( LENGTH_UNIT ( ) NAMED_UNIT ( * ) SI_UNIT ( .MILLI., .METRE. ) );
#112 = ADVANCED_FACE ( 'NONE', ( #141 ), #16, .F. ) ;
#113 = PERSON_AND_ORGANIZATION_ROLE ( 'classification_officer' ) ;
#114 = CALENDAR_DATE ( 2020, 22, 12 ) ;
#115 = PERSON_AND_ORGANIZATION ( #118, #49 ) ;
#116 = APPROVAL_ROLE ( '' ) ;
#117 = DATE_AND_TIME ( #21, #41 ) ;
#118 = PERSON ( 'UNSPECIFIED', 'UNSPECIFIED', 'UNSPECIFIED', ('UNSPECIFIED'), ('UNSPECIFIED'), ('UNSPECIFIED') ) ;
#119 = CC_DESIGN_PERSON_AND_ORGANIZATION_ASSIGNMENT ( #100, #145, ( #1 ) ) ;
#120 = LOCAL_TIME ( 12, 15, 14.00000000000000000, #86 ) ;
#121 = EDGE_CURVE ( 'NONE', #92, #124, #165, .T. ) ;
#122 = APPROVAL ( #155, 'UNSPECIFIED' ) ;
#123 = APPROVAL_PERSON_ORGANIZATION ( #38, #102, #72 ) ;
#124 = VERTEX_POINT ( 'NONE', #154 ) ;
#125 = CARTESIAN_POINT ( 'NONE',  ( -1.187907395172932594E-15, 1.555301434917138433E-15, -12.69999999999999929 ) ) ;
#126 = CIRCLE ( 'NONE', #77, 12.69999999999999929 ) ;
#127 = CARTESIAN_POINT ( 'NONE',  ( 0.000000000000000000, 0.000000000000000000, 0.000000000000000000 ) ) ;
#128 = PERSON_AND_ORGANIZATION_ROLE ( 'creator' ) ;
#129 = FACE_OUTER_BOUND ( 'NONE', #166, .T. ) ;
#130 = PERSON_AND_ORGANIZATION ( #118, #49 ) ;
#131 = CALENDAR_DATE ( 2020, 22, 12 ) ;
#132 = AXIS2_PLACEMENT_3D ( 'NONE', #94, #17, #169 ) ;
#133 = DATE_TIME_ROLE ( 'creation_date' ) ;
#134 = ORIENTED_EDGE ( 'NONE', *, *, #146, .T. ) ;
#135 = APPLICATION_CONTEXT ( 'configuration controlled 3d designs of mechanical parts and assemblies' ) ;
#136 = CARTESIAN_POINT ( 'NONE',  ( -1.187907395172932594E-15, 0.000000000000000000, 12.69999999999999929 ) ) ;
#137 = CARTESIAN_POINT ( 'NONE',  ( 2.999999999999998224, 1.555301434917138433E-15, -12.69999999999999929 ) ) ;
#138 = CARTESIAN_POINT ( 'NONE',  ( 0.000000000000000000, 1.555301434917138433E-15, -12.69999999999999929 ) ) ;
#139 = CALENDAR_DATE ( 2020, 22, 12 ) ;
#140 = CC_DESIGN_APPROVAL ( #89, ( #52 ) ) ;
#141 = FACE_OUTER_BOUND ( 'NONE', #34, .T. ) ;
#142 = COORDINATED_UNIVERSAL_TIME_OFFSET ( 8, 0, .AHEAD. ) ;
#143 = APPROVAL_DATE_TIME ( #36, #122 ) ;
#144 = APPROVAL_STATUS ( 'not_yet_approved' ) ;
#145 = PERSON_AND_ORGANIZATION_ROLE ( 'design_owner' ) ;
#146 = EDGE_CURVE ( 'NONE', #124, #92, #19, .T. ) ;
#147 = VECTOR ( 'NONE', #152, 1000.000000000000000 ) ;
#148 = CC_DESIGN_PERSON_AND_ORGANIZATION_ASSIGNMENT ( #44, #113, ( #46 ) ) ;
#149 = ADVANCED_FACE ( 'NONE', ( #129 ), #57, .T. ) ;
#150 = EDGE_LOOP ( 'NONE', ( #31, #6 ) ) ;
#151 = DIRECTION ( 'NONE',  ( -0.000000000000000000, 0.000000000000000000, 1.000000000000000000 ) ) ;
#152 = DIRECTION ( 'NONE',  ( -1.000000000000000000, -0.000000000000000000, -0.000000000000000000 ) ) ;
#153 = EDGE_CURVE ( 'NONE', #78, #53, #126, .T. ) ;
#154 = CARTESIAN_POINT ( 'NONE',  ( 2.999999999999998224, 0.000000000000000000, 12.69999999999999929 ) ) ;
#155 = APPROVAL_STATUS ( 'not_yet_approved' ) ;
#156 = ORIENTED_EDGE ( 'NONE', *, *, #97, .F. ) ;
#157 = CC_DESIGN_PERSON_AND_ORGANIZATION_ASSIGNMENT ( #115, #81, ( #109 ) ) ;
#158 = AXIS2_PLACEMENT_3D ( 'NONE', #127, #8, #93 ) ;
#159 = APPROVAL_PERSON_ORGANIZATION ( #168, #122, #116 ) ;
#160 = CARTESIAN_POINT ( 'NONE',  ( 0.000000000000000000, 0.000000000000000000, 0.000000000000000000 ) ) ;
#161 =( NAMED_UNIT ( * ) PLANE_ANGLE_UNIT ( ) SI_UNIT ( $, .RADIAN. ) );
#162 = LOCAL_TIME ( 12, 15, 14.00000000000000000, #25 ) ;
#163 = CC_DESIGN_APPROVAL ( #102, ( #109 ) ) ;
#164 = CARTESIAN_POINT ( 'NONE',  ( 0.000000000000000000, 0.000000000000000000, 12.69999999999999929 ) ) ;
#165 = CIRCLE ( 'NONE', #132, 12.69999999999999929 ) ;
#166 = EDGE_LOOP ( 'NONE', ( #134, #75, #20, #103 ) ) ;
#167 = CYLINDRICAL_SURFACE ( 'NONE', #158, 12.69999999999999929 ) ;
#168 = PERSON_AND_ORGANIZATION ( #118, #49 ) ;
#169 = DIRECTION ( 'NONE',  ( 0.000000000000000000, 0.000000000000000000, 1.000000000000000000 ) ) ;
#170 = CC_DESIGN_DATE_AND_TIME_ASSIGNMENT ( #171, #133, ( #52 ) ) ;
#171 = DATE_AND_TIME ( #114, #14 ) ;
#172 = APPLICATION_PROTOCOL_DEFINITION ( 'international standard', 'config_control_design', 1994, #135 ) ;
#173 = PERSON_AND_ORGANIZATION ( #118, #49 ) ;
#174 = COORDINATED_UNIVERSAL_TIME_OFFSET ( 8, 0, .AHEAD. ) ;
#175 = APPROVAL_DATE_TIME ( #117, #102 ) ;
ENDSEC;
END-ISO-10303-21;
